FANDOM


Intro:

   B                E
e|---------------------------------------------------------------------------|
B|---------------------------------------------------------------------------|
G|-4-4-4-4-4-4-4-4--2-2-2-2-2-2-2-2------------------------------------------|
D|-4-4-4-4-4-4-4-4--2-2-0-2-2-0-2-0--X4--0--2--2b-0--------------------------|
A|-2-2-0-2-2-0-2-0--1-1-1-1-1-1-1-1------------------------------------------|
E|------------------0-0-0-0-0-0-0-0------------------------------------------|


B                     E
Growing sleepy as the rain falls
   B                                 E
As children draped in flowers form a chain
     B                               E
They sing a song with jelly jars and bird calls
   B                             E
As night falls into dust and its day again
    B                                 E
I'm not afraid of a love parade in my daydream
    B                           E
Old men with kazoos and beating drums
    B                                 E
But I awake and I see the streets are ice cream
         B                 E                           B
Its just you and me and oh dear, our life has just begun

E                       B
Everything is beautiful here
E                              B
Its spinning circles 'round my ear
E                              B      E
I'm finally breaking free from fear
X              B
And its fading

   B                E
e|---------------------------------------------------------------------------|
B|---------------------------------------------------------------------------|
G|-4-4-4-4-4-4-4-4--2-2-2-2-2-2-2-2------2--2--2--2--------------------------|
D|-4-4-4-4-4-4-4-4--2-2-0-2-2-0-2-0--X2--0--2--2b-0--------------------------|
A|-2-2-0-2-2-0-2-0--1-1-1-1-1-1-1-1------1--1--1--1--------------------------|
E|------------------0-0-0-0-0-0-0-0------------------------------------------|

Verse 2:
B            E                        B
Oh beautiful smiles, won't you stay a while?
                   E                  B
We could close the door and sleep all day
                 E                               B
It's a September sky, with pretty pictures in my mind
                E                   B
That's lost its feeling and its so afraid

E                       B
Everything is beautiful here
E                              B
Its spinning circles 'round my ear
E                              B      E
I'm finally breaking free from fear
X               B
And its fading

   B                E
e|---------------------------------------------------------------------------|
B|---------------------------------------------------------------------------|
G|-4-4-4-4-4-4-4-4--2-2-2-2-2-2-2-2------2--2--2--2--------------------------|
D|-4-4-4-4-4-4-4-4--2-2-0-2-2-0-2-0--X2--0--2--2b-0--------------------------|
A|-2-2-0-2-2-0-2-0--1-1-1-1-1-1-1-1------1--1--1--1--------------------------|
E|------------------0-0-0-0-0-0-0-0------------------------------------------|

B                         E
Growing sleepy now as the rain falls
   B                                 E
As children draped in flowers form a chain
     B                               E
They sing a song with jelly jars and bird calls
   B                             E        B
As night falls into dust and its day again

E                       B
Everything is beautiful here
E                              B
Its spinning circles 'round my ear
E                              B      E
I'm finally breaking free from fear
X               B
And its fading  ah
E      B
Fading ah
E      B
Fading ah
E      B           E     B   E
Fading wooah oh oh oh oh oh

Everything Is

Ad blocker interference detected!


Wikia is a free-to-use site that makes money from advertising. We have a modified experience for viewers using ad blockers

Wikia is not accessible if you’ve made further modifications. Remove the custom ad blocker rule(s) and the page will load as expected.