FANDOM


Intro
e|---------------------------------------------------------------|
B|--------2-----------------0-----------3-------3----------2--2--|
G|------2---2-------------1---1-------2---2---2---2------2----2—-|
D|----2-------2---------2-------2---0-------0----------2------2--|
A|--0-----------0-0---2-----------2------------------0--------0--|
E|------------------0--------------------------------------------|

e|---------------------------------------------------------------0-|
B|--------2-----------------0-----------3-------3---------------2--|
G|------2---2-------------1---1-------2---2---2-------2---2----2---|
D|----2-------2---------2-------2---0-------0-------2---2-----2----|
A|--0-----------0-0---2-----------2---------------0----------0-----|
E|------------------0----------------------------------------------|


A
Let the world collapse and die
     E
It's sinking deeper in your eyes
    D
And I will sing my sweet surprise
     A
For no one


A
Let the world collapse and swallow
E
All the loves you'll hold tomorrow
    D
And I will shield and I will follow
A
No one

        E           A
And I'm all screwed up
      E        A
But I feel all right
 E	 A     E       A
Sinking deeper all the time
   E	 A         E     A
Inside a hole deep in my mind
      D	          E
But I love you, I love you
           A
More than life

A
Let the world collapse and fall
   E
It gave me no, nothing at all
    D
And I will shield and I will fault
     A
For no one

A
Let it sink and let it shudder
E
All the words that I will mutter
   D
In hopes your love will soon discover
A
No one


	E           A
And I'm all screwed up
      E        A
But I feel all right
 E      A      E       A
Sinking deeper all the time
   E     A         E     A
Inside a hole deep in my mind
       D          E
But I love you, I love you
      D		      E
Oh, I love you, yes I love you
      D         E         A
Oh, I love you more than life
	  E
More than life
	  A
More than life
	  E
More than life
	  A
More than life

e|----------------------------------------------------------|
B|------2-3-2-3-2-5-5-5-5-5-3-2-3-2---2-2-----2-2-----------|
G|--2-4-----------------------------4-----4-2-----4--2------|

e|----------------------------------------------------------|
B|------2-3-2-3-5-5-5-5—5-5-5-5-3-3-3-3-2-2-2-2-------------|
G|--2-4------------------------------------------4-4-4-4-2--|

Love You More Than Life

Ad blocker interference detected!


Wikia is a free-to-use site that makes money from advertising. We have a modified experience for viewers using ad blockers

Wikia is not accessible if you’ve made further modifications. Remove the custom ad blocker rule(s) and the page will load as expected.