FANDOM


Fmaj7 C Fmaj7 A

  Fmaj7        C
A candy coated dream
               Fmaj7          A
With parks and trees and figurines
        Fmaj7              C
And her arms wrap round my sleeve
          Fmaj7             A
With tiny steps and eyes of green
       Fmaj7             C
Toy guitar that's out of tune
              Fmaj7           A
Eyes fixed on morning time cartoons
           Fmaj7          C
And by the lantern of the moon
       Fmaj7                A
I will dream of a love like you

    Fmaj7            C
And will you hang up high
  Fmaj7           C
A family portrait smile
Fmaj7            C
Will you kiss my child
          G
As she is dancing now?
     Fmaj7         C
This figure I will frame
  Fmaj7          C
A life without a name
    Fmaj7             C
But this thought I proclaim
           G
I'm just romancing now
I'm only chancing now 

Instrumental: 
  e|---\3--5--7--9-9--10-9--10--12--10--9-10-9--7--5~----
  B|-----------------------------------------------------
  G|-----------------------------------------------------
  D|-----------------------------------------------------
  A|-----------------------------------------------------
  E|-----------------------------------------------------

  e|----------------------------------------------------- 
  B|--\10--8--5--3-3-5--1---------0-1--0-----------------
  G|----------------------2--0-2---------2-2~------------
  D|-----------------------------------------------------
  A|-----------------------------------------------------
  E|-----------------------------------------------------


  Fmaj7        C
A candy coated dream
                Fmaj7            A
With hearts and string and angel wings
        Fmaj7            C
And her life will fall between
                Fmaj7         A
The cracks that follow you and me

Fmaj7            C
Will you hang up high
  Fmaj7           C
A family portrait smile
Fmaj7            C
Will you kiss my child
          G
As she is dancing now?
     Fmaj7         C
This figure I will frame
  Fmaj7          C
A life without a name
    Fmaj7             C
But this thought I proclaim
           G
I'm just romancing now
                       Fmaj7 C Fmaj7 C Fmaj7 C...
I'm only chancing noooow 

Instrumental:
   e|--\10~~8-10-12~~10-12-13~~12-10~~12-10-8-8~~10-8-10--
   B|-----------------------------------------------------
   G|-----------------------------------------------------
   D|-----------------------------------------------------
   A|-----------------------------------------------------
   E|-----------------------------------------------------

   e|--12~13-15~~15-15--17-15~~17-15-13-15-13-12-10-12-13-
   B|-----------------------------------------------------
   G|-----------------------------------------------------
   D|-----------------------------------------------------
   A|-----------------------------------------------------
   E|-----------------------------------------------------

   e|--12-10~12-10-8-8~~8-8--8--8-7~~7-8-7-5-7-8~~--------
   B|-----------------------------------------------------
   G|-----------------------------------------------------
   D|-----------------------------------------------------
   A|-----------------------------------------------------
   E|-----------------------------------------------------


Unborn

Ad blocker interference detected!


Wikia is a free-to-use site that makes money from advertising. We have a modified experience for viewers using ad blockers

Wikia is not accessible if you’ve made further modifications. Remove the custom ad blocker rule(s) and the page will load as expected.